  0
SECTION
  2
HEADER
  9
$ACADVER
  1
AC1015
  9
$ACADMAINTVER
 70
     6
  9
$DWGCODEPAGE
  3
ANSI_1254
  9
$INSBASE
 10
0.0
 20
0.0
 30
0.0
  9
$EXTMIN
 10
0.0
 20
0.0
 30
0.0
  9
$EXTMAX
 10
279.4
 20
215.9
 30
0.0
  9
$LIMMIN
 10
0.0
 20
0.0
  9
$LIMMAX
 10
279.4
 20
215.9
  9
$ORTHOMODE
 70
     0
  9
$REGENMODE
 70
     1
  9
$FILLMODE
 70
     1
  9
$QTEXTMODE
 70
     0
  9
$MIRRTEXT
 70
     1
  9
$LTSCALE
 40
1.0
  9
$ATTMODE
 70
     1
  9
$TEXTSIZE
 40
3.5
  9
$TRACEWID
 40
1.0
  9
$TEXTSTYLE
  7
Standard
  9
$CLAYER
  8
0
  9
$CELTYPE
  6
ByLayer
  9
$CECOLOR
 62
   256
  9
$CELTSCALE
 40
1.0
  9
$DISPSILH
 70
     0
  9
$DIMSCALE
 40
1.0
  9
$DIMASZ
 40
3.5
  9
$DIMEXO
 40
1.0
  9
$DIMDLI
 40
3.75
  9
$DIMRND
 40
0.0
  9
$DIMDLE
 40
0.0
  9
$DIMEXE
 40
1.0
  9
$DIMTP
 40
0.0
  9
$DIMTM
 40
0.0
  9
$DIMTXT
 40
3.5
  9
$DIMCEN
 40
2.5
  9
$DIMTSZ
 40
0.0
  9
$DIMTOL
 70
     0
  9
$DIMLIM
 70
     0
  9
$DIMTIH
 70
     1
  9
$DIMTOH
 70
     1
  9
$DIMSE1
 70
     0
  9
$DIMSE2
 70
     0
  9
$DIMTAD
 70
     1
  9
$DIMZIN
 70
     0
  9
$DIMBLK
  1

  9
$DIMASO
 70
     1
  9
$DIMSHO
 70
     1
  9
$DIMPOST
  1

  9
$DIMAPOST
  1

  9
$DIMALT
 70
     0
  9
$DIMALTD
 70
     3
  9
$DIMALTF
 40
0.0393700787
  9
$DIMLFAC
 40
1.0
  9
$DIMTOFL
 70
     1
  9
$DIMTVP
 40
0.0
  9
$DIMTIX
 70
     0
  9
$DIMSOXD
 70
     0
  9
$DIMSAH
 70
     0
  9
$DIMBLK1
  1

  9
$DIMBLK2
  1

  9
$DIMSTYLE
  2
ISO-25
  9
$DIMCLRD
 70
     0
  9
$DIMCLRE
 70
     0
  9
$DIMCLRT
 70
     0
  9
$DIMTFAC
 40
1.0
  9
$DIMGAP
 40
1.524
  9
$DIMJUST
 70
     0
  9
$DIMSD1
 70
     0
  9
$DIMSD2
 70
     0
  9
$DIMTOLJ
 70
     0
  9
$DIMTZIN
 70
     0
  9
$DIMALTZ
 70
     0
  9
$DIMALTTZ
 70
     0
  9
$DIMUPT
 70
     0
  9
$DIMDEC
 70
     2
  9
$DIMTDEC
 70
     2
  9
$DIMALTU
 70
     2
  9
$DIMALTTD
 70
     3
  9
$DIMTXSTY
  7
Standard
  9
$DIMAUNIT
 70
     0
  9
$DIMADEC
 70
     2
  9
$DIMALTRND
 40
0.0
  9
$DIMAZIN
 70
     0
  9
$DIMDSEP
 70
    44
  9
$DIMATFIT
 70
     3
  9
$DIMFRAC
 70
     0
  9
$DIMLDRBLK
  1

  9
$DIMLUNIT
 70
     2
  9
$DIMLWD
 70
    -2
  9
$DIMLWE
 70
    -2
  9
$DIMTMOVE
 70
     0
  9
$LUNITS
 70
     2
  9
$LUPREC
 70
     2
  9
$SKETCHINC
 40
1.0
  9
$FILLETRAD
 40
10.0
  9
$AUNITS
 70
     0
  9
$AUPREC
 70
     2
  9
$MENU
  1
.
  9
$ELEVATION
 40
0.0
  9
$PELEVATION
 40
0.0
  9
$THICKNESS
 40
0.0
  9
$LIMCHECK
 70
     0
  9
$CHAMFERA
 40
0.0
  9
$CHAMFERB
 40
0.0
  9
$CHAMFERC
 40
0.0
  9
$CHAMFERD
 40
0.0
  9
$SKPOLY
 70
     0
  9
$TDCREATE
 40
2458985.690850081
  9
$TDUCREATE
 40
2458985.565850081
  9
$TDUPDATE
 40
2458985.690850463
  9
$TDUUPDATE
 40
2458985.565850463
  9
$TDINDWG
 40
0.0000000116
  9
$TDUSRTIMER
 40
0.0000000116
  9
$USRTIMER
 70
     1
  9
$ANGBASE
 50
0.0
  9
$ANGDIR
 70
     0
  9
$PDMODE
 70
     0
  9
$PDSIZE
 40
-1.0
  9
$PLINEWID
 40
0.0
  9
$SPLFRAME
 70
     0
  9
$SPLINETYPE
 70
     6
  9
$SPLINESEGS
 70
     8
  9
$HANDSEED
  5
CB
  9
$SURFTAB1
 70
     6
  9
$SURFTAB2
 70
     6
  9
$SURFTYPE
 70
     6
  9
$SURFU
 70
     6
  9
$SURFV
 70
     6
  9
$UCSBASE
  2

  9
$UCSNAME
  2

  9
$UCSORG
 10
0.0
 20
0.0
 30
0.0
  9
$UCSXDIR
 10
1.0
 20
0.0
 30
0.0
  9
$UCSYDIR
 10
0.0
 20
1.0
 30
0.0
  9
$UCSORTHOREF
  2

  9
$UCSORTHOVIEW
 70
     0
  9
$UCSORGTOP
 10
0.0
 20
0.0
 30
0.0
  9
$UCSORGBOTTOM
 10
0.0
 20
0.0
 30
0.0
  9
$UCSORGLEFT
 10
0.0
 20
0.0
 30
0.0
  9
$UCSORGRIGHT
 10
0.0
 20
0.0
 30
0.0
  9
$UCSORGFRONT
 10
0.0
 20
0.0
 30
0.0
  9
$UCSORGBACK
 10
0.0
 20
0.0
 30
0.0
  9
$PUCSBASE
  2

  9
$PUCSNAME
  2

  9
$PUCSORG
 10
0.0
 20
0.0
 30
0.0
  9
$PUCSXDIR
 10
1.0
 20
0.0
 30
0.0
  9
$PUCSYDIR
 10
0.0
 20
1.0
 30
0.0
  9
$PUCSORTHOREF
  2

  9
$PUCSORTHOVIEW
 70
     0
  9
$PUCSORGTOP
 10
0.0
 20
0.0
 30
0.0
  9
$PUCSORGBOTTOM
 10
0.0
 20
0.0
 30
0.0
  9
$PUCSORGLEFT
 10
0.0
 20
0.0
 30
0.0
  9
$PUCSORGRIGHT
 10
0.0
 20
0.0
 30
0.0
  9
$PUCSORGFRONT
 10
0.0
 20
0.0
 30
0.0
  9
$PUCSORGBACK
 10
0.0
 20
0.0
 30
0.0
  9
$USERI1
 70
     0
  9
$USERI2
 70
     0
  9
$USERI3
 70
     0
  9
$USERI4
 70
     0
  9
$USERI5
 70
     0
  9
$USERR1
 40
0.0
  9
$USERR2
 40
0.0
  9
$USERR3
 40
0.0
  9
$USERR4
 40
0.0
  9
$USERR5
 40
0.0
  9
$WORLDVIEW
 70
     1
  9
$SHADEDGE
 70
     3
  9
$SHADEDIF
 70
    70
  9
$TILEMODE
 70
     1
  9
$MAXACTVP
 70
    64
  9
$PINSBASE
 10
0.0
 20
0.0
 30
0.0
  9
$PLIMCHECK
 70
     0
  9
$PEXTMIN
 10
1.0000000000E+20
 20
1.0000000000E+20
 30
1.0000000000E+20
  9
$PEXTMAX
 10
-1.0000000000E+20
 20
-1.0000000000E+20
 30
-1.0000000000E+20
  9
$PLIMMIN
 10
0.0
 20
0.0
  9
$PLIMMAX
 10
420.0
 20
297.0
  9
$UNITMODE
 70
     0
  9
$VISRETAIN
 70
     1
  9
$PLINEGEN
 70
     0
  9
$PSLTSCALE
 70
     1
  9
$TREEDEPTH
 70
  3020
  9
$CMLSTYLE
  2
Standard
  9
$CMLJUST
 70
     0
  9
$CMLSCALE
 40
20.0
  9
$PROXYGRAPHICS
 70
     1
  9
$MEASUREMENT
 70
     1
  9
$CELWEIGHT
370
    -1
  9
$ENDCAPS
280
     0
  9
$JOINSTYLE
280
     0
  9
$LWDISPLAY
290
     1
  9
$INSUNITS
 70
     4
  9
$HYPERLINKBASE
  1

  9
$STYLESHEET
  1

  9
$XEDIT
290
     1
  9
$CEPSNTYPE
380
     0
  9
$PSTYLEMODE
290
     1
  9
$FINGERPRINTGUID
  2
{383d10ce-c3d3-4542-8b81-951d3a41f351}
  9
$VERSIONGUID
  2
{FAEB1C32-E019-11D5-929B-00C0DF256EC4}
  9
$EXTNAMES
290
     1
  9
$PSVPSCALE
 40
0.0
  9
$OLESTARTUP
290
     0
  0
ENDSEC
  0
SECTION
  2
CLASSES
  0
CLASS
  1
ACDBDICTIONARYWDFLT
  2
AcDbDictionaryWithDefault
  3
ObjectDBX Classes
 90
        0
280
     0
281
     0
  0
CLASS
  1
VISUALSTYLE
  2
AcDbVisualStyle
  3
ObjectDBX Classes
 90
     4095
280
     0
281
     0
  0
CLASS
  1
MATERIAL
  2
AcDbMaterial
  3
ObjectDBX Classes
 90
     1153
280
     0
281
     0
  0
CLASS
  1
SCALE
  2
AcDbScale
  3
ObjectDBX Classes
 90
     1153
280
     0
281
     0
  0
CLASS
  1
TABLESTYLE
  2
AcDbTableStyle
  3
ObjectDBX Classes
 90
     4095
280
     0
281
     0
  0
CLASS
  1
MLEADERSTYLE
  2
AcDbMLeaderStyle
  3
ACDB_MLEADERSTYLE_CLASS
 90
     4095
280
     0
281
     0
  0
CLASS
  1
SUN
  2
AcDbSun
  3
SCENEOE
 90
     1153
280
     0
281
     0
  0
CLASS
  1
ACDBPLACEHOLDER
  2
AcDbPlaceHolder
  3
ObjectDBX Classes
 90
        0
280
     0
281
     0
  0
CLASS
  1
LAYOUT
  2
AcDbLayout
  3
ObjectDBX Classes
 90
        0
280
     0
281
     0
  0
ENDSEC
  0
SECTION
  2
TABLES
  0
TABLE
  2
VPORT
  5
8
330
0
100
AcDbSymbolTable
 70
     1
  0
VPORT
  5
29
330
8
100
AcDbSymbolTableRecord
100
AcDbViewportTableRecord
  2
*Active
 70
     0
 10
0.0
 20
0.0
 11
1.0
 21
1.0
 12
139.7
 22
107.95
 13
0.0
 23
0.0
 14
10.0
 24
10.0
 15
10.0
 25
10.0
 16
0.0
 26
0.0
 36
1.0
 17
0.0
 27
0.0
 37
0.0
 40
215.9
 41
1.2941176471
 42
50.0
 43
0.0
 44
0.0
 50
0.0
 51
0.0
 71
     0
 72
  2000
 73
     1
 74
     3
 75
     0
 76
     0
 77
     0
 78
     0
281
     0
 65
     1
110
0.0
120
0.0
130
0.0
111
1.0
121
0.0
131
0.0
112
0.0
122
1.0
132
0.0
 79
     0
146
0.0
  0
ENDTAB
  0
TABLE
  2
LTYPE
  5
5
330
0
100
AcDbSymbolTable
 70
     6
  0
LTYPE
  5
14
330
5
100
AcDbSymbolTableRecord
100
AcDbLinetypeTableRecord
  2
ByBlock
 70
     0
  3

 72
    65
 73
     0
 40
0.0
  0
LTYPE
  5
15
330
5
100
AcDbSymbolTableRecord
100
AcDbLinetypeTableRecord
  2
ByLayer
 70
     0
  3

 72
    65
 73
     0
 40
0.0
  0
LTYPE
  5
16
330
5
100
AcDbSymbolTableRecord
100
AcDbLinetypeTableRecord
  2
Continuous
 70
     0
  3
Solid line
 72
    65
 73
     0
 40
0.0
  0
LTYPE
  5
6E
330
5
100
AcDbSymbolTableRecord
100
AcDbLinetypeTableRecord
  2
HIDDEN
 70
     0
  3
Hidden __ __ __ __ __ __ __ __ __ __ __ __ __ __
 72
    65
 73
     2
 40
1.905
 49
1.27
 74
     0
 49
-0.635
 74
     0
  0
LTYPE
  5
6F
330
5
100
AcDbSymbolTableRecord
100
AcDbLinetypeTableRecord
  2
PHANTOM
 70
     0
  3
Phantom ______  __  __  ______  __  __  ______
 72
    65
 73
     6
 40
12.7
 49
6.35
 74
     0
 49
-1.27
 74
     0
 49
1.27
 74
     0
 49
-1.27
 74
     0
 49
1.27
 74
     0
 49
-1.27
 74
     0
  0
LTYPE
  5
70
330
5
100
AcDbSymbolTableRecord
100
AcDbLinetypeTableRecord
  2
CENTER
 70
     0
  3
Center ____ _ ____ _ ____ _ ____ _ ____ _ ____
 72
    65
 73
     4
 40
10.16
 49
6.35
 74
     0
 49
-1.27
 74
     0
 49
1.27
 74
     0
 49
-1.27
 74
     0
  0
LTYPE
  5
71
330
5
100
AcDbSymbolTableRecord
100
AcDbLinetypeTableRecord
  2
CENTERX2
 70
     0
  3
Center (2x) ________  __  ________  __  _____
 72
    65
 73
     4
 40
20.32
 49
12.7
 74
     0
 49
-2.54
 74
     0
 49
2.54
 74
     0
 49
-2.54
 74
     0
  0
LTYPE
  5
72
330
5
100
AcDbSymbolTableRecord
100
AcDbLinetypeTableRecord
  2
DOT2
 70
     0
  3
Dot (.5x) ........................................
 72
    65
 73
     2
 40
0.635
 49
0.0
 74
     0
 49
-0.635
 74
     0
  0
ENDTAB
  0
TABLE
  2
LAYER
  5
2
330
0
100
AcDbSymbolTable
 70
    17
  0
LAYER
  5
10
330
2
100
AcDbSymbolTableRecord
100
AcDbLayerTableRecord
  2
0
 70
     0
 62
     7
  6
Continuous
370
    -3
390
F
  0
LAYER
  5
73
330
2
100
AcDbSymbolTableRecord
100
AcDbLayerTableRecord
  2
FORMAT
 70
     0
 62
     7
  6
Continuous
370
    -3
390
F
  0
LAYER
  5
74
330
2
100
AcDbSymbolTableRecord
100
AcDbLayerTableRecord
  2
YARDIMCI_GEOMETRI
 70
     0
 62
    -6
  6
Continuous
290
     0
370
    -3
390
F
  0
LAYER
  5
75
330
2
100
AcDbSymbolTableRecord
100
AcDbLayerTableRecord
  2
SAYFA_CERCEVESI
 70
     0
 62
     7
  6
Continuous
370
    25
390
F
  0
LAYER
  5
76
330
2
100
AcDbSymbolTableRecord
100
AcDbLayerTableRecord
  2
ANTET
 70
     0
 62
     7
  6
Continuous
370
    -3
390
F
  0
LAYER
  5
77
330
2
100
AcDbSymbolTableRecord
100
AcDbLayerTableRecord
  2
OLCU
 70
     0
 62
   150
  6
Continuous
370
    -3
390
F
  0
LAYER
  5
78
330
2
100
AcDbSymbolTableRecord
100
AcDbLayerTableRecord
  2
METIN
 70
     0
 62
    96
  6
Continuous
370
    -3
390
F
  0
LAYER
  5
79
330
2
100
AcDbSymbolTableRecord
100
AcDbLayerTableRecord
  2
BALON
 70
     0
 62
     5
  6
Continuous
370
    -3
390
F
  0
LAYER
  5
7A
330
2
100
AcDbSymbolTableRecord
100
AcDbLayerTableRecord
  2
VURGU
 70
     0
 62
     7
  6
Continuous
370
    -3
390
F
  0
LAYER
  5
7B
330
2
100
AcDbSymbolTableRecord
100
AcDbLayerTableRecord
  2
SILIK
 70
     0
 62
     7
  6
Continuous
370
    -3
390
F
  0
LAYER
  5
7C
330
2
100
AcDbSymbolTableRecord
100
AcDbLayerTableRecord
  2
MODEL
 70
     0
 62
     7
  6
Continuous
370
    -3
390
F
  0
LAYER
  5
7D
330
2
100
AcDbSymbolTableRecord
100
AcDbLayerTableRecord
  2
DETAYLANDıRMA
 70
     0
 62
   190
  6
Continuous
370
    -3
390
F
  0
LAYER
  5
7E
330
2
100
AcDbSymbolTableRecord
100
AcDbLayerTableRecord
  2
TOLERANS
 70
     0
 62
   230
  6
Continuous
370
    -3
390
F
  0
LAYER
  5
7F
330
2
100
AcDbSymbolTableRecord
100
AcDbLayerTableRecord
  2
MERKEZ_CIZGILERI
 70
     0
 62
    30
  6
Continuous
370
    -3
390
F
  0
LAYER
  5
80
330
2
100
AcDbSymbolTableRecord
100
AcDbLayerTableRecord
  2
KESIT-DETAY_CIZGILERI
 70
     0
 62
     7
  6
Continuous
370
    -3
390
F
  0
LAYER
  5
81
330
2
100
AcDbSymbolTableRecord
100
AcDbLayerTableRecord
  2
\U+041E\U+0421\U+0415\U+0412\U+042B\U+0415
 70
     0
 62
     7
  6
Continuous
370
    -3
390
F
  0
LAYER
  5
82
330
2
100
AcDbSymbolTableRecord
100
AcDbLayerTableRecord
  2
\U+0412\U+041E\U+0414\U+042F\U+041D\U+042B\U+0415_\U+0417\U+041D\U+0410\U+041A\U+0418
 70
     0
 62
    11
  6
Continuous
370
    -3
390
F
  0
ENDTAB
  0
TABLE
  2
STYLE
  5
3
330
0
100
AcDbSymbolTable
 70
     1
  0
STYLE
  5
11
330
3
100
AcDbSymbolTableRecord
100
AcDbTextStyleTableRecord
  2
Standard
 70
     0
 40
0.0
 41
1.0
 50
0.0
 71
     0
 42
3.5
  3
txt
  4

  0
ENDTAB
  0
TABLE
  2
VIEW
  5
6
330
0
100
AcDbSymbolTable
 70
     0
  0
ENDTAB
  0
TABLE
  2
UCS
  5
7
330
0
100
AcDbSymbolTable
 70
     0
  0
ENDTAB
  0
TABLE
  2
APPID
  5
9
330
0
100
AcDbSymbolTable
 70
     1
  0
APPID
  5
12
330
9
100
AcDbSymbolTableRecord
100
AcDbRegAppTableRecord
  2
ACAD
 70
     0
  0
ENDTAB
  0
TABLE
  2
DIMSTYLE
  5
A
330
0
100
AcDbSymbolTable
 70
     1
100
AcDbDimStyleTable
  0
DIMSTYLE
105
27
330
A
100
AcDbSymbolTableRecord
100
AcDbDimStyleTableRecord
  2
ISO-25
 70
     0
 41
2.5
 42
0.625
 43
3.75
 44
1.25
 73
     0
 74
     0
 77
     1
 78
     8
140
2.5
141
2.5
143
0.0393700787
147
0.625
171
     3
172
     1
178
     0
271
     2
272
     2
274
     3
278
    44
283
     0
284
     8
340
11
  0
ENDTAB
  0
TABLE
  2
BLOCK_RECORD
  5
1
330
0
100
AcDbSymbolTable
 70
     3
  0
BLOCK_RECORD
  5
1F
330
1
100
AcDbSymbolTableRecord
100
AcDbBlockTableRecord
  2
*Model_Space
340
22
  0
BLOCK_RECORD
  5
1B
330
1
100
AcDbSymbolTableRecord
100
AcDbBlockTableRecord
  2
*Paper_Space
340
1E
  0
BLOCK_RECORD
  5
23
330
1
100
AcDbSymbolTableRecord
100
AcDbBlockTableRecord
  2
*Paper_Space0
340
26
  0
BLOCK_RECORD
  5
88
330
1
100
AcDbSymbolTableRecord
100
AcDbBlockTableRecord
  2
SW_CENTERMARKSYMBOL_0
340
0
102
{BLKREFS
331
93
102
}
  0
BLOCK_RECORD
  5
9C
330
1
100
AcDbSymbolTableRecord
100
AcDbBlockTableRecord
  2
SW_CENTERMARKSYMBOL_1
340
0
102
{BLKREFS
331
A7
102
}
  0
ENDTAB
  0
ENDSEC
  0
SECTION
  2
BLOCKS
  0
BLOCK
  5
20
330
1F
100
AcDbEntity
  8
0
100
AcDbBlockBegin
  2
*Model_Space
 70
     0
 10
0.0
 20
0.0
 30
0.0
  3
*Model_Space
  1

  0
ENDBLK
  5
21
330
1F
100
AcDbEntity
  8
0
100
AcDbBlockEnd
  0
BLOCK
  5
1C
330
1B
100
AcDbEntity
 67
     1
  8
0
100
AcDbBlockBegin
  2
*Paper_Space
 70
     0
 10
0.0
 20
0.0
 30
0.0
  3
*Paper_Space
  1

  0
ENDBLK
  5
1D
330
1B
100
AcDbEntity
 67
     1
  8
0
100
AcDbBlockEnd
  0
BLOCK
  5
24
330
23
100
AcDbEntity
  8
0
100
AcDbBlockBegin
  2
*Paper_Space0
 70
     0
 10
0.0
 20
0.0
 30
0.0
  3
*Paper_Space0
  1

  0
ENDBLK
  5
25
330
23
100
AcDbEntity
  8
0
100
AcDbBlockEnd
  0
BLOCK
  5
89
330
88
100
AcDbEntity
  8
0
100
AcDbBlockBegin
  2
SW_CENTERMARKSYMBOL_0
 70
     0
 10
0.0
 20
0.0
 30
0.0
  3
SW_CENTERMARKSYMBOL_0
  1

  0
LINE
  5
8B
330
88
100
AcDbEntity
  8
FORMAT
 62
     0
100
AcDbLine
 10
0.0
 20
0.0
 30
0.0
 11
2.5
 21
0.0
 31
0.0
  0
LINE
  5
8C
330
88
100
AcDbEntity
  8
FORMAT
 62
     0
100
AcDbLine
 10
0.0
 20
0.0
 30
0.0
 11
0.0
 21
2.5
 31
0.0
  0
LINE
  5
8D
330
88
100
AcDbEntity
  8
FORMAT
 62
     0
100
AcDbLine
 10
0.0
 20
0.0
 30
0.0
 11
-2.5
 21
0.0
 31
0.0
  0
LINE
  5
8E
330
88
100
AcDbEntity
  8
FORMAT
 62
     0
100
AcDbLine
 10
0.0
 20
0.0
 30
0.0
 11
0.0
 21
-2.5
 31
0.0
  0
LINE
  5
8F
330
88
100
AcDbEntity
  8
FORMAT
 62
     0
100
AcDbLine
 10
5.0
 20
0.0
 30
0.0
 11
92.5
 21
0.0
 31
0.0
  0
LINE
  5
90
330
88
100
AcDbEntity
  8
FORMAT
 62
     0
100
AcDbLine
 10
0.0
 20
5.0
 30
0.0
 11
0.0
 21
92.5
 31
0.0
  0
LINE
  5
91
330
88
100
AcDbEntity
  8
FORMAT
 62
     0
100
AcDbLine
 10
-5.0
 20
0.0
 30
0.0
 11
-92.5
 21
0.0
 31
0.0
  0
LINE
  5
92
330
88
100
AcDbEntity
  8
FORMAT
 62
     0
100
AcDbLine
 10
0.0
 20
-5.0
 30
0.0
 11
0.0
 21
-92.5
 31
0.0
  0
ENDBLK
  5
8A
330
88
100
AcDbEntity
  8
0
100
AcDbBlockEnd
  0
BLOCK
  5
9D
330
9C
100
AcDbEntity
  8
0
100
AcDbBlockBegin
  2
SW_CENTERMARKSYMBOL_1
 70
     0
 10
0.0
 20
0.0
 30
0.0
  3
SW_CENTERMARKSYMBOL_1
  1

  0
LINE
  5
9F
330
9C
100
AcDbEntity
  8
FORMAT
 62
     0
100
AcDbLine
 10
0.0
 20
0.0
 30
0.0
 11
0.0
 21
2.5
 31
0.0
  0
LINE
  5
A0
330
9C
100
AcDbEntity
  8
FORMAT
 62
     0
100
AcDbLine
 10
0.0
 20
0.0
 30
0.0
 11
-2.5
 21
0.0
 31
0.0
  0
LINE
  5
A1
330
9C
100
AcDbEntity
  8
FORMAT
 62
     0
100
AcDbLine
 10
0.0
 20
0.0
 30
0.0
 11
0.0
 21
-2.5
 31
0.0
  0
LINE
  5
A2
330
9C
100
AcDbEntity
  8
FORMAT
 62
     0
100
AcDbLine
 10
0.0
 20
0.0
 30
0.0
 11
2.5
 21
0.0
 31
0.0
  0
LINE
  5
A3
330
9C
100
AcDbEntity
  8
FORMAT
 62
     0
100
AcDbLine
 10
0.0
 20
5.0
 30
0.0
 11
0.0
 21
57.5
 31
0.0
  0
LINE
  5
A4
330
9C
100
AcDbEntity
  8
FORMAT
 62
     0
100
AcDbLine
 10
-5.0
 20
0.0
 30
0.0
 11
-57.5
 21
0.0
 31
0.0
  0
LINE
  5
A5
330
9C
100
AcDbEntity
  8
FORMAT
 62
     0
100
AcDbLine
 10
0.0
 20
-5.0
 30
0.0
 11
0.0
 21
-57.5
 31
0.0
  0
LINE
  5
A6
330
9C
100
AcDbEntity
  8
FORMAT
 62
     0
100
AcDbLine
 10
5.0
 20
0.0
 30
0.0
 11
57.5
 21
0.0
 31
0.0
  0
ENDBLK
  5
9E
330
9C
100
AcDbEntity
  8
0
100
AcDbBlockEnd
  0
ENDSEC
  0
SECTION
  2
ENTITIES
  0
LINE
  5
83
330
1F
100
AcDbEntity
  8
0
  6
Continuous
 62
     7
370
    25
100
AcDbLine
 10
82.6473462104
 20
107.8224416968
 30
0.0
 11
82.6473462104
 21
-30.901915193
 31
0.0
  0
LINE
  5
84
330
1F
100
AcDbEntity
  8
0
  6
Continuous
 62
     7
370
    25
100
AcDbLine
 10
192.6473456143
 20
-30.901915193
 30
0.0
 11
192.6473456143
 21
107.838229477
 31
0.0
  0
CIRCLE
  5
85
330
1F
100
AcDbEntity
  8
0
  6
Continuous
 62
     7
370
    25
100
AcDbCircle
 10
137.6473459123
 20
179.0980782505
 30
0.0
 40
79.3
  0
CIRCLE
  5
86
330
1F
100
AcDbEntity
  8
0
  6
Continuous
 62
     7
370
    25
100
AcDbCircle
 10
137.6473459123
 20
179.0980782505
 30
0.0
 40
90.00000000000001
  0
LINE
  5
87
330
1F
100
AcDbEntity
  8
0
  6
Continuous
 62
     7
370
    25
100
AcDbLine
 10
192.6473456143
 20
-30.901915193
 30
0.0
 11
82.6473462104
 21
-30.901915193
 31
0.0
  0
INSERT
  5
93
330
1F
100
AcDbEntity
  8
FORMAT
 62
     7
100
AcDbBlockReference
  2
SW_CENTERMARKSYMBOL_0
 10
137.6473459123
 20
179.0980782505
 30
0.0
  0
LINE
  5
94
330
1F
100
AcDbEntity
  8
0
  6
Continuous
 62
     7
370
    25
100
AcDbLine
 10
227.6473494886
 20
341.7697949875
 30
0.0
 11
227.6473494886
 21
799.769799279
 31
0.0
  0
LINE
  5
95
330
1F
100
AcDbEntity
  8
0
  6
Continuous
 62
     7
370
    25
100
AcDbLine
 10
47.6473423361
 20
799.769799279
 30
0.0
 11
47.6473423361
 21
341.7697949875
 31
0.0
  0
CIRCLE
  5
96
330
1F
100
AcDbEntity
  8
0
  6
Continuous
 62
     7
370
    25
100
AcDbCircle
 10
137.6473459123
 20
570.7697971332
 30
0.0
 40
48.39999999999998
  0
CIRCLE
  5
97
330
1F
100
AcDbEntity
  8
0
  6
Continuous
 62
     7
370
    25
100
AcDbCircle
 10
137.6473459123
 20
570.7697971332
 30
0.0
 40
55.0
  0
LINE
  5
98
330
1F
100
AcDbEntity
  8
0
  6
Continuous
 62
     7
370
    25
100
AcDbLine
 10
137.6473459123
 20
799.769799279
 30
0.0
 11
227.6473494886
 21
799.769799279
 31
0.0
  0
LINE
  5
99
330
1F
100
AcDbEntity
  8
0
  6
Continuous
 62
     7
370
    25
100
AcDbLine
 10
47.6473423361
 20
799.769799279
 30
0.0
 11
137.6473459123
 21
799.769799279
 31
0.0
  0
LINE
  5
9A
330
1F
100
AcDbEntity
  8
0
  6
Continuous
 62
     7
370
    25
100
AcDbLine
 10
137.6473459123
 20
341.7697949875
 30
0.0
 11
227.6473494886
 21
341.7697949875
 31
0.0
  0
LINE
  5
9B
330
1F
100
AcDbEntity
  8
0
  6
Continuous
 62
     7
370
    25
100
AcDbLine
 10
47.6473423361
 20
341.7697949875
 30
0.0
 11
137.6473459123
 21
341.7697949875
 31
0.0
  0
INSERT
  5
A7
330
1F
100
AcDbEntity
  8
FORMAT
100
AcDbBlockReference
  2
SW_CENTERMARKSYMBOL_1
 10
137.6473459123
 20
570.7697971332
 30
0.0
  0
LINE
  5
A8
330
1F
100
AcDbEntity
  8
0
  6
Continuous
 62
     7
370
    25
100
AcDbLine
 10
-120.4594597004
 20
269.0980818268
 30
0.0
 11
-578.4594639919
 21
269.0980818268
 31
0.0
  0
LINE
  5
A9
330
1F
100
AcDbEntity
  8
0
  6
Continuous
 62
     7
370
    25
100
AcDbLine
 10
-294.4971993349
 20
89.0980746742
 30
0.0
 11
-120.4594597004
 21
89.0980746742
 31
0.0
  0
LINE
  5
AA
330
1F
100
AcDbEntity
  8
0
  6
Continuous
 62
     7
370
    25
100
AcDbLine
 10
-578.4594639919
 20
89.0980746742
 30
0.0
 11
-404.4594615482
 21
89.0980746742
 31
0.0
  0
LINE
  5
AB
330
1F
100
AcDbEntity
  8
0
  6
Continuous
 62
     7
370
    25
100
AcDbLine
 10
-404.4594615482
 20
89.0980746742
 30
0.0
 11
-404.4594615482
 21
-30.901915193
 31
0.0
  0
LINE
  5
AC
330
1F
100
AcDbEntity
  8
0
  6
Continuous
 62
     7
370
    25
100
AcDbLine
 10
-294.4594621442
 20
-30.901915193
 30
0.0
 11
-294.4594621442
 21
89.1211789247
 31
0.0
  0
SPLINE
  5
AD
330
1F
100
AcDbEntity
  8
0
  6
Continuous
 62
     7
370
    25
100
AcDbSpline
210
0.0
220
0.0
230
1.0
 70
     8
 71
     3
 72
    39
 73
    35
 74
     0
 42
0.000000001
 43
0.00000001
 40
0.0
 40
0.0
 40
0.0
 40
0.0
 40
0.010863042166893
 40
0.0337770536512269
 40
0.0574023765871203
 40
0.0810289661269711
 40
0.1255701427412251
 40
0.1711831026693109
 40
0.2203731896049785
 40
0.2706731635033494
 40
0.2985753145372844
 40
0.3264761831998401
 40
0.3552044973443502
 40
0.3839282633502504
 40
0.4277329081104032
 40
0.4502521746696763
 40
0.4727693129570152
 40
0.4947162061473784
 40
0.5166628504538683
 40
0.5393385127041805
 40
0.5620160386419805
 40
0.6033918878364188
 40
0.6456871793474185
 40
0.6933570712614906
 40
0.7420242072214263
 40
0.7700419517872023
 40
0.7980583254852783
 40
0.826915144240928
 40
0.8557686828953103
 40
0.8831364444571156
 40
0.9105010262264694
 40
0.9389515254965457
 40
0.9673992501486616
 40
1.0
 40
1.0
 40
1.0
 40
1.0
 10
-294.497199334924
 20
89.12117892466682
 30
0.0
 10
-294.489414283974
 20
89.11643995331288
 30
0.0
 10
-294.465207797469
 20
89.1017048093988
 30
0.0
 10
-294.7497798483529
 20
89.27536446538872
 30
0.0
 10
-295.3449550771036
 20
89.63728039092655
 30
0.0
 10
-296.5410887436761
 20
90.3575056053371
 30
0.0
 10
-298.7063733759559
 20
91.64043977151441
 30
0.0
 10
-302.3678844426061
 20
93.72489214641527
 30
0.0
 10
-307.1616408456291
 20
96.29116813433728
 30
0.0
 10
-312.1716267988575
 20
98.73259052266502
 30
0.0
 10
-316.809742950982
 20
100.7587514869614
 30
0.0
 10
-320.7583480374763
 20
102.3259447825349
 30
0.0
 10
-324.9918210849245
 20
103.8122553019097
 30
0.0
 10
-330.2867897831638
 20
105.3958214289837
 30
0.0
 10
-335.5616344700772
 20
106.591062166735
 30
0.0
 10
-340.6710847746742
 20
107.3534321141362
 30
0.0
 10
-344.5937208402678
 20
107.7294515742438
 30
0.0
 10
-348.5219532776379
 20
107.887564362094
 30
0.0
 10
-352.4671538578893
 20
107.8326891938414
 30
0.0
 10
-356.4310466298457
 20
107.5544174986481
 30
0.0
 10
-361.465085966012
 20
106.9263660821427
 30
0.0
 10
-367.4531104002355
 20
105.7224506585136
 30
0.0
 10
-374.4003997428466
 20
103.7128151637915
 30
0.0
 10
-381.1408340436247
 20
101.2111794931722
 30
0.0
 10
-386.553947068904
 20
98.81522584215774
 30
0.0
 10
-390.6405739636417
 20
96.82776766428817
 30
0.0
 10
-393.6614881476825
 20
95.27182400848251
 30
0.0
 10
-396.3891651068797
 20
93.7996396393309
 30
0.0
 10
-398.7494111854228
 20
92.47544544755644
 30
0.0
 10
-400.7061264158062
 20
91.3454672715362
 30
0.0
 10
-402.2857816059201
 20
90.41191273416192
 30
0.0
 10
-403.4647285154402
 20
89.70395237133064
 30
0.0
 10
-404.2923375031448
 20
89.20031563532895
 30
0.0
 10
-404.4012830717916
 20
89.13366634111954
 30
0.0
 10
-404.4594615481541
 20
89.09807467423576
 30
0.0
  0
LINE
  5
AE
330
1F
100
AcDbEntity
  8
0
  6
Continuous
 62
     7
370
    25
100
AcDbLine
 10
-578.4594639919
 20
89.0980746742
 30
0.0
 11
-578.4594639919
 21
269.0980818268
 31
0.0
  0
LINE
  5
AF
330
1F
100
AcDbEntity
  8
0
  6
Continuous
 62
     7
370
    25
100
AcDbLine
 10
-120.4594597004
 20
89.0980746742
 30
0.0
 11
-120.4594597004
 21
269.0980818268
 31
0.0
  0
LINE
  5
B0
330
1F
100
AcDbEntity
  8
0
  6
Continuous
 62
     7
370
    25
100
AcDbLine
 10
-294.4594621442
 20
-30.901915193
 30
0.0
 11
-404.4594615482
 21
-30.901915193
 31
0.0
  0
LINE
  5
B1
330
1F
100
AcDbEntity
  8
0
  6
Continuous
 62
     7
370
    25
100
AcDbLine
 10
672.1676098118
 20
89.0980746742
 30
0.0
 11
846.1676122556
 21
89.0980746742
 31
0.0
  0
LINE
  5
B2
330
1F
100
AcDbEntity
  8
0
  6
Continuous
 62
     7
370
    25
100
AcDbLine
 10
388.167607964
 20
89.0980746742
 30
0.0
 11
562.2048633108
 21
89.0980746742
 31
0.0
  0
LINE
  5
B3
330
1F
100
AcDbEntity
  8
0
  6
Continuous
 62
     7
370
    25
100
AcDbLine
 10
846.1676122556
 20
269.0980818268
 30
0.0
 11
388.167607964
 21
269.0980818268
 31
0.0
  0
LINE
  5
B4
330
1F
100
AcDbEntity
  8
0
  6
Continuous
 62
     7
370
    25
100
AcDbLine
 10
562.1676104078
 20
89.1208436485
 30
0.0
 11
562.1676104078
 21
-30.901915193
 31
0.0
  0
LINE
  5
B5
330
1F
100
AcDbEntity
  8
0
  6
Continuous
 62
     7
370
    25
100
AcDbLine
 10
672.1676098118
 20
-30.901915193
 30
0.0
 11
672.1676098118
 21
89.0980746742
 31
0.0
  0
SPLINE
  5
B6
330
1F
100
AcDbEntity
  8
0
  6
Continuous
 62
     7
370
    25
100
AcDbSpline
210
0.0
220
0.0
230
1.0
 70
     8
 71
     3
 72
    36
 73
    32
 74
     0
 42
0.000000001
 43
0.00000001
 40
0.0
 40
0.0
 40
0.0
 40
0.0
 40
0.0232684819320762
 40
0.0467182827521478
 40
0.070728550203776
 40
0.0949253951861619
 40
0.1415687486228558
 40
0.1893892934491307
 40
0.2397583999434805
 40
0.2912798018192643
 40
0.3194829030796876
 40
0.3478868559905919
 40
0.376976567853271
 40
0.406336948595174
 40
0.4488188739183939
 40
0.4924812660479337
 40
0.5349925775666556
 40
0.5787949081407372
 40
0.6207955111131902
 40
0.6636819674181854
 40
0.7132679770711235
 40
0.7639399006776947
 40
0.7922440484759319
 40
0.8207534441158693
 40
0.849954797832956
 40
0.879419944467658
 40
0.9059108539727639
 40
0.9326343659046241
 40
0.9601444643836831
 40
0.9879477070084894
 40
1.0
 40
1.0
 40
1.0
 40
1.0
 10
672.167609811778
 20
89.09807467423576
 30
0.0
 10
672.1376612447684
 20
89.11639562485666
 30
0.0
 10
672.0775307375161
 20
89.15318029150974
 30
0.0
 10
671.588028313425
 20
89.45154982842563
 30
0.0
 10
670.7983501213848
 20
89.92933501213062
 30
0.0
 10
669.3343268862936
 20
90.80506498047482
 30
0.0
 10
666.7795462749876
 20
92.30211758208296
 30
0.0
 10
662.6067553041077
 20
94.63220006164177
 30
0.0
 10
657.2935166733064
 20
97.38901607662268
 30
0.0
 10
651.8740842453986
 20
99.9054445851396
 30
0.0
 10
646.9059550891343
 20
101.9309007566077
 30
0.0
 10
642.7177976204058
 20
103.4523874008993
 30
0.0
 10
638.2316428144021
 20
104.8545945461116
 30
0.0
 10
632.7598548923626
 20
106.2504540980379
 30
0.0
 10
626.1772627241544
 20
107.4213025490909
 30
0.0
 10
618.5770814872404
 20
107.9840503267035
 30
0.0
 10
610.8568657350528
 20
107.7151604710716
 30
0.0
 10
603.4250355574632
 20
106.6631506209378
 30
0.0
 10
596.3488817120092
 20
104.9744075216097
 30
0.0
 10
589.4555056298509
 20
102.7476753928682
 30
0.0
 10
582.7757847714396
 20
100.0663426889715
 30
0.0
 10
577.4831782095291
 20
97.58273586006833
 30
0.0
 10
573.5793266973086
 20
95.59451815830438
 30
0.0
 10
570.7725021223404
 20
94.09301094071883
 30
0.0
 10
568.2795251987063
 20
92.70464501811021
 30
0.0
 10
566.2201164508714
 20
91.51999468065388
 30
0.0
 10
564.5973802787171
 20
90.56438557042968
 30
0.0
 10
563.377714851295
 20
89.83365117734554
 30
0.0
 10
562.5598497779715
 20
89.33769537499774
 30
0.0
 10
562.17899649308
 20
89.1050419628143
 30
0.0
 10
562.1988573869554
 20
89.11717471167181
 30
0.0
 10
562.2048633108091
 20
89.12084364853996
 30
0.0
  0
LINE
  5
B7
330
1F
100
AcDbEntity
  8
0
  6
Continuous
 62
     7
370
    25
100
AcDbLine
 10
846.1676122556
 20
269.0980818268
 30
0.0
 11
846.1676122556
 21
89.0980746742
 31
0.0
  0
LINE
  5
B8
330
1F
100
AcDbEntity
  8
0
  6
Continuous
 62
     7
370
    25
100
AcDbLine
 10
388.167607964
 20
269.0980818268
 30
0.0
 11
388.167607964
 21
89.0980746742
 31
0.0
  0
LINE
  5
B9
330
1F
100
AcDbEntity
  8
0
  6
Continuous
 62
     7
370
    25
100
AcDbLine
 10
672.1676098118
 20
-30.901915193
 30
0.0
 11
562.1676104078
 21
-30.901915193
 31
0.0
  0
LINE
  5
BA
330
1F
100
AcDbEntity
  8
0
  6
Continuous
 62
     7
370
    25
100
AcDbLine
 10
47.6473423361
 20
-141.9657311481
 30
0.0
 11
47.6473423361
 21
-599.9657354397
 31
0.0
  0
LINE
  5
BB
330
1F
100
AcDbEntity
  8
0
  6
Continuous
 62
     7
370
    25
100
AcDbLine
 10
227.6473494886
 20
-599.9657354397
 30
0.0
 11
227.6473494886
 21
-141.9657311481
 31
0.0
  0
LINE
  5
BC
330
1F
100
AcDbEntity
  8
0
  6
Continuous
 62
     7
370
    25
100
AcDbLine
 10
227.6473494886
 20
-599.9657354397
 30
0.0
 11
47.6473423361
 21
-599.9657354397
 31
0.0
  0
LINE
  5
BD
330
1F
100
AcDbEntity
  8
0
  6
Continuous
 62
     7
370
    25
100
AcDbLine
 10
227.6473494886
 20
-141.9657311481
 30
0.0
 11
47.6473423361
 21
-141.9657311481
 31
0.0
  0
LINE
  5
BE
330
1F
100
AcDbEntity
  8
0
  6
Continuous
 62
     7
370
    25
100
AcDbLine
 10
800.7104200822
 20
-351.0281897657
 30
0.0
 11
476.8555112642
 21
-164.0707304065
 31
0.0
  0
LINE
  5
BF
330
1F
100
AcDbEntity
  8
0
  6
Continuous
 62
     7
370
    25
100
AcDbLine
 10
386.8628227539
 20
-319.9595271185
 30
0.0
 11
538.7866199359
 21
-407.663268405
 31
0.0
  0
LINE
  5
C0
330
1F
100
AcDbEntity
  8
0
  6
Continuous
 62
     7
370
    25
100
AcDbLine
 10
648.7866149977
 20
-471.1649138837
 30
0.0
 11
710.7177315719
 21
-506.9169864777
 31
0.0
  0
LINE
  5
C1
330
1F
100
AcDbEntity
  8
0
  6
Continuous
 62
     7
370
    25
100
AcDbLine
 10
538.7866225701
 20
-401.7647377835
 30
0.0
 11
538.7866225701
 21
-506.9674235845
 31
0.0
  0
LINE
  5
C2
330
1F
100
AcDbEntity
  8
0
  6
Continuous
 62
     7
370
    25
100
AcDbLine
 10
648.7866202661
 20
-506.9674235845
 30
0.0
 11
648.7866202661
 21
-401.7555696428
 31
0.0
  0
SPLINE
  5
C3
330
1F
100
AcDbEntity
  8
0
  6
Continuous
 62
     7
370
    25
100
AcDbSpline
210
0.0
220
0.0
230
1.0
 70
     8
 71
     3
 72
    15
 73
    11
 74
     0
 42
0.000000001
 43
0.00000001
 40
0.0
 40
0.0
 40
0.0
 40
0.0
 40
0.093327548099521
 40
0.1873823480795101
 40
0.2836851235255168
 40
0.3807362427408724
 40
0.5678180568486134
 40
0.7596214675931343
 40
0.9616469036660017
 40
1.0
 40
1.0
 40
1.0
 40
1.0
 10
554.895748663547
 20
-386.5313114785295
 30
0.0
 10
553.94266572007
 20
-387.091000028344
 30
0.0
 10
552.0290729653047
 20
-388.2147384827779
 30
0.0
 10
549.4369683278796
 20
-389.8672073916478
 30
0.0
 10
547.0641068151765
 20
-391.4913034096081
 30
0.0
 10
544.3147619501326
 20
-393.5601062891365
 30
0.0
 10
541.5716089525783
 20
-395.9961548092434
 30
0.0
 10
539.5506566379377
 20
-398.7136198355868
 30
0.0
 10
538.6536387963364
 20
-400.6004419577203
 30
0.0
 10
538.857325576793
 20
-401.6019854401981
 30
0.0
 10
538.889824397027
 20
-401.7617846255976
 30
0.0
  0
SPLINE
  5
C4
330
1F
100
AcDbEntity
  8
0
  6
Continuous
 62
     7
370
    25
100
AcDbSpline
210
0.0
220
0.0
230
1.0
 70
     8
 71
     3
 72
    32
 73
    28
 74
     0
 42
0.000000001
 43
0.00000001
 40
0.0
 40
0.0
 40
0.0
 40
0.0
 40
0.0284465385947046
 40
0.0654912351663511
 40
0.1027829104747094
 40
0.1408932096065261
 40
0.1793161413607186
 40
0.2376691677120507
 40
0.2675518782458792
 40
0.2976633830231468
 40
0.3267826989491102
 40
0.3561352255058453
 40
0.3862200699236323
 40
0.4165514936062833
 40
0.471669073752672
 40
0.5280114610404174
 40
0.5915134589280336
 40
0.656343905166404
 40
0.6935399209979571
 40
0.7309881711861342
 40
0.7692705827947881
 40
0.8078655341089518
 40
0.8441628451879798
 40
0.8807759405967102
 40
0.9184691306955207
 40
0.9565719017797212
 40
1.0
 40
1.0
 40
1.0
 40
1.0
 10
648.6272077140954
 20
-401.754500605778
 30
0.0
 10
648.6696615565394
 20
-400.7334515937623
 30
0.0
 10
648.767401201381
 20
-398.3827346255212
 30
0.0
 10
648.2086058976225
 20
-394.6912501188026
 30
0.0
 10
647.3233029285019
 20
-390.7222451357853
 30
0.0
 10
645.9764830566037
 20
-386.8206086773156
 30
0.0
 10
643.8895784355379
 20
-382.4106359291356
 30
0.0
 10
641.322401718482
 20
-378.6082919937739
 30
0.0
 10
638.4295031077872
 20
-375.4835966684873
 30
0.0
 10
636.0056460313574
 20
-373.3784235932426
 30
0.0
 10
633.371031882787
 20
-371.55750750916
 30
0.0
 10
630.5341726587686
 20
-370.0242266086627
 30
0.0
 10
627.4730826366216
 20
-368.7768746902829
 30
0.0
 10
623.3269052946326
 20
-367.5740810930112
 30
0.0
 10
617.9332157935534
 20
-366.7782134147084
 30
0.0
 10
610.9547263739612
 20
-366.7761261642825
 30
0.0
 10
603.3480049155921
 20
-367.7070851707055
 30
0.0
 10
596.399836050239
 20
-369.2571365999472
 30
0.0
 10
590.5233099970214
 20
-370.9356823357116
 30
0.0
 10
585.7697104771233
 20
-372.4853995167865
 30
0.0
 10
580.9880950364036
 20
-374.2194198253674
 30
0.0
 10
576.3157007062088
 20
-376.0719941209429
 30
0.0
 10
571.8069993058118
 20
-377.9985840079677
 30
0.0
 10
567.460395204952
 20
-379.9813017426991
 30
0.0
 10
563.2239315973143
 20
-382.0413328457437
 30
0.0
 10
558.9438630828859
 20
-384.2475000184737
 30
0.0
 10
556.302625769627
 20
-385.7375982271436
 30
0.0
 10
554.895748663547
 20
-386.5313114785295
 30
0.0
  0
LWPOLYLINE
  5
C5
330
1F
100
AcDbEntity
  8
0
  6
Continuous
 62
     7
370
    25
100
AcDbPolyline
 90
      101
 70
   128
 43
0.0
 10
431.8591670091
 20
-315.5038047524
 10
435.8551311191
 20
-313.0519665422
 10
439.8353250638
 20
-310.3197818273
 10
443.7840409102
 20
-307.3180342083
 10
447.685694532
 20
-304.0585612996
 10
451.5248878413
 20
-300.5542309697
 10
455.2864690462
 20
-296.8188761378
 10
458.9555945535
 20
-292.8672347029
 10
462.5177829694
 20
-288.7149001186
 10
465.9589756857
 20
-284.3782681666
 10
469.2655908805
 20
-279.8744449457
 10
472.4245814701
 20
-275.2212073331
 10
475.4234772557
 20
-270.4369239003
 10
478.2504455094
 20
-265.5404712678
 10
480.8943278532
 20
-260.5511763135
 10
483.344692942
 20
-255.4887249218
 10
485.5918680742
 20
-250.3731011499
 10
487.6269813382
 20
-245.2244929341
 10
489.4420090275
 20
-240.0632160483
 10
491.0297809097
 20
-234.9096441413
 10
492.3840329093
 20
-229.7841159659
 10
493.4994229134
 20
-224.7068562918
 10
494.3715465762
 20
-219.6979044239
 10
494.9969583929
 20
-214.7770305532
 10
495.3731980412
 20
-209.9636509674
 10
495.4987798447
 20
-205.2767622706
 10
495.3731980412
 20
-200.7348672378
 10
494.9969583929
 20
-196.3558847036
 10
494.3715465762
 20
-192.1570959464
 10
493.4994229134
 20
-188.1550766265
 10
492.3840329093
 20
-184.3656188394
 10
491.0297809097
 20
-180.8036767409
 10
489.4420090275
 20
-177.4833072283
 10
487.6269813382
 20
-174.4176167067
 10
485.5918680742
 20
-171.6187002509
 10
483.344692942
 20
-169.0976096605
 10
480.8943278532
 20
-166.8642895806
 10
478.2504455094
 20
-164.9275562048
 10
475.4234772557
 20
-163.295051643
 10
472.4245814701
 20
-161.9732195838
 10
469.2655908805
 20
-160.9672748712
 10
465.9589756857
 20
-160.2811882915
 10
462.5177829694
 20
-159.9176728796
 10
458.9555945535
 20
-159.8781534965
 10
455.2864690462
 20
-160.1627942004
 10
451.5248878413
 20
-160.7704685837
 10
447.685694532
 20
-161.6987764974
 10
443.7840409102
 20
-162.944056974
 10
439.8353250638
 20
-164.5013996285
 10
435.8551311191
 20
-166.3646490255
 10
431.8591670091
 20
-168.5264527726
 10
427.8632028991
 20
-170.9782909827
 10
423.8830089544
 20
-173.7104756977
 10
419.9342931079
 20
-176.7122233166
 10
416.0326394861
 20
-179.9716962254
 10
412.1934461768
 20
-183.4760265553
 10
408.4318649719
 20
-187.2113813872
 10
404.7627394646
 20
-191.1630228221
 10
401.2005510488
 20
-195.3153574064
 10
397.7593583324
 20
-199.6519893584
 10
394.4527431376
 20
-204.1558125793
 10
391.293752548
 20
-208.8090501919
 10
388.2948567625
 20
-213.5933336247
 10
385.4678885087
 20
-218.4897862572
 10
382.8240061649
 20
-223.4790812115
 10
380.3736410761
 20
-228.5415326032
 10
378.1264659439
 20
-233.6571563751
 10
376.09135268
 20
-238.8057645908
 10
374.2763249906
 20
-243.9670414767
 10
372.6885531085
 20
-249.1206133837
 10
371.3343011088
 20
-254.2461415591
 10
370.2189111048
 20
-259.3234012332
 10
369.346787442
 20
-264.3323531011
 10
368.7213756253
 20
-269.2532269718
 10
368.345135977
 20
-274.0666065575
 10
368.2195541735
 20
-278.7534952544
 10
368.345135977
 20
-283.2953902872
 10
368.7213756253
 20
-287.6743728213
 10
369.346787442
 20
-291.8731615786
 10
370.2189111048
 20
-295.8751808985
 10
371.3343011088
 20
-299.6646386855
 10
372.6885531085
 20
-303.2265807841
 10
374.2763249906
 20
-306.5469502967
 10
376.09135268
 20
-309.6126408182
 10
378.1264659439
 20
-312.4115572741
 10
380.3736410761
 20
-314.9326478645
 10
382.8240061649
 20
-317.1659679444
 10
385.4678885087
 20
-319.1027013202
 10
388.2948567625
 20
-320.735205882
 10
391.293752548
 20
-322.0570379411
 10
394.4527431376
 20
-323.0629826538
 10
397.7593583324
 20
-323.7490692335
 10
401.2005510488
 20
-324.1125846454
 10
404.7627394646
 20
-324.1521040285
 10
408.4318649719
 20
-323.8674633246
 10
412.1934461768
 20
-323.2597889413
 10
416.0326394861
 20
-322.3314810276
 10
419.9342931079
 20
-321.086200551
 10
423.8830089544
 20
-319.5288578965
 10
427.8632028991
 20
-317.6656084995
 10
431.8591670091
 20
-315.5038047524
  0
LWPOLYLINE
  5
C6
330
1F
100
AcDbEntity
  8
0
  6
Continuous
 62
     7
370
    25
100
AcDbPolyline
 90
       39
 70
   128
 43
0.0
 10
755.7140758271
 20
-502.4612641116
 10
759.7100399371
 20
-500.0094259015
 10
763.6902338818
 20
-497.2772411865
 10
767.6389497282
 20
-494.2754935676
 10
771.54060335
 20
-491.0160206588
 10
775.3797966594
 20
-487.5116903289
 10
779.1413778643
 20
-483.7763354971
 10
782.8105033715
 20
-479.8246940621
 10
786.3726917874
 20
-475.6723594778
 10
789.8138845037
 20
-471.3357275258
 10
793.1204996986
 20
-466.8319043049
 10
796.2794902881
 20
-462.1786666923
 10
799.2783860737
 20
-457.3943832595
 10
802.1053543274
 20
-452.497930627
 10
804.7492366712
 20
-447.5086356727
 10
807.1996017601
 20
-442.446184281
 10
809.4467768923
 20
-437.3305605091
 10
811.4818901562
 20
-432.1819522934
 10
813.2969178455
 20
-427.0206754075
 10
814.8846897277
 20
-421.8671035005
 10
816.2389417273
 20
-416.7415753251
 10
817.3543317314
 20
-411.664315651
 10
818.2264553942
 20
-406.6553637831
 10
818.8518672109
 20
-401.7344899124
 10
819.2281068592
 20
-396.9211103267
 10
819.3536886627
 20
-392.2342216298
 10
819.2281068592
 20
-387.6923265971
 10
818.8518672109
 20
-383.3133440629
 10
818.2264553942
 20
-379.1145553057
 10
817.3543317314
 20
-375.1125359857
 10
816.2389417273
 20
-371.3230781987
 10
814.8846897277
 20
-367.7611361002
 10
813.2969178455
 20
-364.4407665875
 10
811.4818901562
 20
-361.375076066
 10
809.4467768923
 20
-358.5761596102
 10
807.1996017601
 20
-356.0550690197
 10
804.7492366712
 20
-353.8217489398
 10
802.1053543274
 20
-351.885015564
 10
800.7104200822
 20
-351.0281897657
  0
LWPOLYLINE
  5
C7
330
1F
100
AcDbEntity
  8
0
  6
Continuous
 62
     7
370
    25
100
AcDbPolyline
 90
       14
 70
   128
 43
0.0
 10
710.7177315719
 20
-506.9169864777
 10
712.1497655805
 20
-507.6926652412
 10
715.148661366
 20
-509.0144973004
 10
718.3076519556
 20
-510.020442013
 10
721.6142671505
 20
-510.7065285928
 10
725.0554598668
 20
-511.0700440046
 10
728.6176482826
 20
-511.1095633877
 10
732.2867737899
 20
-510.8249226838
 10
736.0483549948
 20
-510.2172483005
 10
739.8875483042
 20
-509.2889403868
 10
743.7892019259
 20
-508.0436599102
 10
747.7379177724
 20
-506.4863172557
 10
751.7181117171
 20
-504.6230678588
 10
755.7140758271
 20
-502.4612641116
  0
LWPOLYLINE
  5
C8
330
1F
100
AcDbEntity
  8
0
  6
Continuous
 62
     7
370
    25
100
AcDbPolyline
 90
       95
 70
   128
 43
0.0
 10
431.8591670091
 20
-306.7668161768
 10
435.6044683352
 20
-304.4601022872
 10
439.3330419723
 20
-301.8744889638
 10
443.0282359639
 20
-299.0215359614
 10
446.6735458675
 20
-295.9139772034
 10
450.2526904874
 20
-292.5656892297
 10
453.7496869482
 20
-288.9916356896
 10
457.1489145743
 20
-285.207769629
 10
460.4351912806
 20
-281.2309954739
 10
463.5938394271
 20
-277.07907626
 10
466.6107556245
 20
-272.7705477075
 10
469.4724607839
 20
-268.324661951
 10
472.1661765077
 20
-263.7612704359
 10
474.6798698707
 20
-259.1007554802
 10
477.0023192743
 20
-254.3639314213
 10
479.123143423
 20
-249.5719548837
 10
481.0328803493
 20
-244.7462274471
 10
482.722990048
 20
-239.9083059123
 10
484.1859335016
 20
-235.0797882388
 10
485.4151726802
 20
-230.2822481454
 10
486.4052179568
 20
-225.5371088776
 10
487.1516439123
 20
-220.8655671627
 10
487.6511209456
 20
-216.2884844668
 10
487.9014205422
 20
-211.8263004926
 10
487.9014205422
 20
-207.4989483879
 10
487.6511209456
 20
-203.3257541765
 10
487.1516439123
 20
-199.3253553883
 10
486.4052179568
 20
-195.5156187375
 10
485.4151726802
 20
-191.9135614149
 10
484.1859335016
 20
-188.5352706675
 10
482.722990048
 20
-185.3958315525
 10
481.0328803493
 20
-182.50926914
 10
479.123143423
 20
-179.8884770251
 10
477.0023192743
 20
-177.5451519286
 10
474.6798698707
 20
-175.4897708751
 10
472.1661765077
 20
-173.7315045001
 10
469.4724607839
 20
-172.2782109594
 10
466.6107556245
 20
-171.1363796512
 10
463.5938394271
 20
-170.3111083971
 10
460.4351912806
 20
-169.8060867067
 10
457.1489145743
 20
-169.6235668736
 10
453.7496869482
 20
-169.7643654913
 10
450.2526904874
 20
-170.2278581233
 10
446.6735458675
 20
-171.0119625672
 10
443.0282359639
 20
-172.1131890375
 10
439.3330419723
 20
-173.5266162053
 10
435.6044683352
 20
-175.2459223705
 10
431.8591670091
 20
-177.2634413482
 10
428.1138656829
 20
-179.5701552378
 10
424.3852920459
 20
-182.1557685612
 10
420.6900980543
 20
-185.0087215636
 10
417.0447881506
 20
-188.1162803216
 10
413.4656435307
 20
-191.4645682953
 10
409.9686470699
 20
-195.0386218354
 10
406.5694194438
 20
-198.8224878959
 10
403.2831427375
 20
-202.7992620511
 10
400.1244945911
 20
-206.951181265
 10
397.1075783936
 20
-211.2597098175
 10
394.2458732342
 20
-215.705595574
 10
391.5521575104
 20
-220.2689870891
 10
389.0384641475
 20
-224.9295020448
 10
386.7160147438
 20
-229.6663261037
 10
384.5951905951
 20
-234.4583026413
 10
382.6854536688
 20
-239.2840300778
 10
380.9953439701
 20
-244.1219516127
 10
379.5324005165
 20
-248.9504692862
 10
378.3031613379
 20
-253.7480093796
 10
377.3131160613
 20
-258.4931486474
 10
376.5666901058
 20
-263.1646903623
 10
376.0672130725
 20
-267.7417730582
 10
375.8169134759
 20
-272.2039570324
 10
375.8169134759
 20
-276.5313091371
 10
376.0672130725
 20
-280.7045033485
 10
376.5666901058
 20
-284.7049021367
 10
377.3131160613
 20
-288.5146387875
 10
378.3031613379
 20
-292.1166961101
 10
379.5324005165
 20
-295.4949868575
 10
380.9953439701
 20
-298.6344259725
 10
382.6854536688
 20
-301.520988385
 10
384.5951905951
 20
-304.1417804999
 10
386.7160147438
 20
-306.4851055964
 10
389.0384641475
 20
-308.5404866499
 10
391.5521575104
 20
-310.2987530248
 10
394.2458732342
 20
-311.7520465656
 10
397.1075783936
 20
-312.8938778738
 10
400.1244945911
 20
-313.7191491279
 10
403.2831427375
 20
-314.2241708183
 10
406.5694194438
 20
-314.4066906514
 10
409.9686470699
 20
-314.2658920337
 10
413.4656435307
 20
-313.8023994016
 10
417.0447881506
 20
-313.0182949578
 10
420.6900980543
 20
-311.9170684875
 10
424.3852920459
 20
-310.5036413196
 10
428.1138656829
 20
-308.7843351545
 10
431.8591670091
 20
-306.7668161768
  0
LWPOLYLINE
  5
C9
330
1F
100
AcDbEntity
  8
0
  6
Continuous
 62
     7
370
    25
100
AcDbPolyline
 90
       74
 70
   128
 43
0.0
 10
628.0105894421
 20
-526.7244997835
 10
630.8259551294
 20
-524.9529496918
 10
633.367094981
 20
-523.0482413776
 10
635.6151940512
 20
-521.0244755235
 10
637.5536066395
 20
-518.8966355659
 10
639.1679889882
 20
-516.680477636
 10
640.4463792947
 20
-514.392405294
 10
641.3793182257
 20
-512.0493634617
 10
641.9599002836
 20
-509.6686962388
 10
642.1838212214
 20
-507.2680282906
 10
642.0494254582
 20
-504.8651371102
 10
641.5577087133
 20
-502.4778085547
 10
640.712314055
 20
-500.1237205129
 10
639.5194989731
 20
-497.8202992014
 10
637.9880905983
 20
-495.5846020721
 10
636.1294290669
 20
-493.4331786703
 10
633.9572805935
 20
-491.3819565837
 10
631.4877205785
 20
-489.4461253008
 10
628.7390320288
 20
-487.6400167422
 10
625.7315708841
 20
-485.977000144
 10
622.4876002295
 20
-484.4693893913
 10
619.0311381709
 20
-483.128346075
 10
615.3877722906
 20
-481.9637997513
 10
611.5844821693
 20
-480.9843698165
 10
607.6494192676
 20
-480.1973114284
 10
603.6117261555
 20
-479.6084476454
 10
599.501287583
 20
-479.2221412945
 10
595.3485388429
 20
-479.0412512516
 10
591.1842273783
 20
-479.0671164741
 10
587.039184926
 20
-479.2995461168
 10
582.9440957088
 20
-479.7368180112
 10
578.9292817501
 20
-480.375697674
 10
575.0244671147
 20
-481.2114527532
 10
571.2585586138
 20
-482.2378944672
 10
567.6594416561
 20
-483.4474255056
 10
564.2537606231
 20
-484.831090782
 10
561.0667315133
 20
-486.3786460552
 10
558.12194833
 20
-488.0786332016
 10
555.4412135062
 20
-489.9184659448
 10
553.0443752443
 20
-491.8845237564
 10
550.9491790136
 20
-493.9622497505
 10
549.1711371595
 20
-496.1362624529
 10
547.7234100353
 20
-498.3904639598
 10
546.6167180871
 20
-500.7081667245
 10
545.8592588769
 20
-503.0722114095
 10
545.4566353015
 20
-505.4650934833
 10
545.4118305673
 20
-507.8690993211
 10
545.7251752638
 20
-510.2664301401
 10
546.3943499973
 20
-512.6393358193
 10
547.4144025129
 20
-514.9702464381
 10
548.777775354
 20
-517.2419098976
 10
550.4743815943
 20
-519.4375025501
 10
552.4916535704
 20
-521.5407729034
 10
554.8146604319
 20
-523.5361459771
 10
557.4262018196
 20
-525.4088503744
 10
560.3069431958
 20
-527.1450207378
 10
563.4355539748
 20
-528.7318048619
 10
566.7888754511
 20
-530.1574515128
 10
570.3420813199
 20
-531.4114061353
 10
574.0688597646
 20
-532.4843885983
 10
577.9416204046
 20
-533.3684518353
 10
581.9316954804
 20
-534.0570493248
 10
586.0095374169
 20
-534.545085273
 10
590.144959851
 20
-534.8289473076
 10
594.3073404631
 20
-534.9065323302
 10
598.4658699069
 20
-534.7772655244
 10
602.5897533241
 20
-534.4421026365
 10
606.6484605914
 20
-533.9035284555
 10
610.6119475912
 20
-533.1655294403
 10
614.4508616777
 20
-532.2335663478
 10
618.1367879724
 20
-531.1145445796
 10
621.6424330983
 20
-529.8167446109
 10
624.9418421698
 20
-528.3497757998
 10
628.0105894421
 20
-526.7244997835
  0
LWPOLYLINE
  5
CA
330
1F
100
AcDbEntity
  8
0
  6
Continuous
 62
     7
370
    25
100
AcDbPolyline
 90
       79
 70
   128
 43
0.0
 10
632.6774941726
 20
-529.4186465379
 10
635.6807979258
 20
-527.5392712087
 10
638.4124033371
 20
-525.5264799021
 10
640.8545925959
 20
-523.3933263132
 10
642.9915273775
 20
-521.1536434853
 10
644.8093499297
 20
-518.8219580808
 10
646.2962696718
 20
-516.4133917278
 10
647.4426441949
 20
-513.9435625561
 10
648.2410398488
 20
-511.4284924353
 10
648.6862765223
 20
-508.8844898834
 10
648.7754697904
 20
-506.3280557839
 10
648.5080374999
 20
-503.7757670542
 10
647.8857168912
 20
-501.2441770414
 10
646.9125422078
 20
-498.7497052728
 10
645.5948249403
 20
-496.3085287274
 10
643.9411129966
 20
-493.9364791902
 10
641.9621281396
 20
-491.6489402263
 10
639.6707080361
 20
-489.4607468157
 10
637.0817120844
 20
-487.3860914519
 10
634.2119300412
 20
-485.4384288142
 10
631.0799750085
 20
-483.6303896591
 10
627.706158804
 20
-481.9736997492
 10
624.1123609103
 20
-480.4791041996
 10
620.3218880407
 20
-479.1562955306
 10
616.3593249789
 20
-478.0138518903
 10
612.2503694486
 20
-477.0591843058
 10
608.0216694532
 20
-476.2984823193
 10
603.7006494205
 20
-475.7366805329
 10
599.3153317361
 20
-475.3774224925
 10
594.8941589374
 20
-475.2230371173
 10
590.4658053694
 20
-475.2745272951
 10
586.0589862069
 20
-475.5315569556
 10
581.7022849156
 20
-475.992460956
 10
577.4239517378
 20
-476.6542488817
 10
573.2517403733
 20
-477.5126293776
 10
569.2127051475
 20
-478.5620359998
 10
565.3330403269
 20
-479.7956621907
 10
561.6379095556
 20
-481.2055080404
 10
558.1512749633
 20
-482.7824302786
 10
554.8957486635
 20
-484.516200631
 10
551.8924449104
 20
-486.3955759602
 10
549.160839499
 20
-488.4083672669
 10
546.7186502402
 20
-490.5415208557
 10
544.5817154587
 20
-492.7812036837
 10
542.7638929064
 20
-495.1128890882
 10
541.2769731644
 20
-497.5214554411
 10
540.1305986412
 20
-499.9912846128
 10
539.3322029874
 20
-502.5063547336
 10
538.8869663139
 20
-505.0503572855
 10
538.7977730457
 20
-507.606791385
 10
539.0652053362
 20
-510.1590801147
 10
539.687525945
 20
-512.6906701275
 10
540.6607006284
 20
-515.1851418961
 10
541.9784178958
 20
-517.6263184415
 10
543.6321298396
 20
-519.9983679787
 10
545.6111146965
 20
-522.2859069426
 10
547.9025348
 20
-524.4741003532
 10
550.4915307518
 20
-526.548755717
 10
553.361312795
 20
-528.4964183547
 10
556.4932678276
 20
-530.3044575098
 10
559.8670840322
 20
-531.9611474197
 10
563.4608819259
 20
-533.4557429693
 10
567.2513547954
 20
-534.7785516383
 10
571.2139178573
 20
-535.9209952786
 10
575.3228733876
 20
-536.8756628631
 10
579.5515733829
 20
-537.6363648496
 10
583.8725934157
 20
-538.198166636
 10
588.2579111001
 20
-538.5574246764
 10
592.6790838987
 20
-538.7118100516
 10
597.1074374667
 20
-538.6603198738
 10
601.5142566293
 20
-538.4032902133
 10
605.8709579206
 20
-537.9423862129
 10
610.1492910984
 20
-537.2805982872
 10
614.3215024629
 20
-536.4222177913
 10
618.3605376886
 20
-535.3728111691
 10
622.2402025092
 20
-534.1391849782
 10
625.9353332806
 20
-532.7293391285
 10
629.4219678729
 20
-531.1524168903
 10
632.6774941726
 20
-529.4186465379
  0
ENDSEC
  0
SECTION
  2
OBJECTS
  0
DICTIONARY
  5
C
330
0
100
AcDbDictionary
281
     1
  3
ACAD_GROUP
350
D
  3
ACAD_LAYOUT
350
1A
  3
ACAD_MLINESTYLE
350
17
  3
ACAD_PLOTSETTINGS
350
19
  3
ACAD_PLOTSTYLENAME
350
E
  3
ACAD_SCALELIST
350
47
  0
DICTIONARY
  5
D
102
{ACAD_REACTORS
330
C
102
}
330
C
100
AcDbDictionary
281
     1
  0
DICTIONARY
  5
1A
102
{ACAD_REACTORS
330
C
102
}
330
C
100
AcDbDictionary
281
     1
  3
Layout1
350
1E
  3
Layout2
350
26
  3
Model
350
22
  0
DICTIONARY
  5
17
102
{ACAD_REACTORS
330
C
102
}
330
C
100
AcDbDictionary
281
     1
  3
Standard
350
18
  0
DICTIONARY
  5
19
102
{ACAD_REACTORS
330
C
102
}
330
C
100
AcDbDictionary
281
     1
  0
ACDBDICTIONARYWDFLT
  5
E
102
{ACAD_REACTORS
330
C
102
}
330
C
100
AcDbDictionary
281
     1
  3
Normal
350
F
100
AcDbDictionaryWithDefault
340
F
  0
DICTIONARY
  5
47
102
{ACAD_REACTORS
330
C
102
}
330
C
100
AcDbDictionary
281
     1
  3
A0
350
48
  3
A1
350
49
  3
A2
350
4A
  3
A3
350
4B
  3
A4
350
4C
  3
A5
350
4D
  3
A6
350
4E
  3
A7
350
4F
  3
A8
350
50
  3
A9
350
51
  3
B0
350
52
  3
B1
350
53
  3
B2
350
54
  3
B3
350
55
  3
B4
350
56
  3
B5
350
57
  3
B6
350
58
  3
B7
350
59
  3
B8
350
5A
  3
B9
350
5B
  3
C0
350
5C
  3
C1
350
5D
  3
C2
350
5E
  3
C3
350
5F
  3
C4
350
60
  3
C5
350
61
  3
C6
350
62
  3
C7
350
63
  3
C8
350
64
  3
C9
350
65
  3
D0
350
66
  3
D1
350
67
  3
D2
350
68
  0
LAYOUT
  5
1E
102
{ACAD_REACTORS
330
1A
102
}
330
1A
100
AcDbPlotSettings
  1

  2
none_device
  4

  6

 40
0.0
 41
0.0
 42
0.0
 43
0.0
 44
0.0
 45
0.0
 46
0.0
 47
0.0
 48
0.0
 49
0.0
140
0.0
141
0.0
142
1.0
143
1.0
 70
   688
 72
     1
 73
     0
 74
     5
  7

 75
    16
147
1.0
148
0.0
149
0.0
100
AcDbLayout
  1
Layout1
 70
     1
 71
     1
 10
0.0
 20
0.0
 11
420.0
 21
297.0
 12
0.0
 22
0.0
 32
0.0
 14
1.0000000000E+20
 24
1.0000000000E+20
 34
1.0000000000E+20
 15
-1.0000000000E+20
 25
-1.0000000000E+20
 35
-1.0000000000E+20
146
0.0
 13
0.0
 23
0.0
 33
0.0
 16
1.0
 26
0.0
 36
0.0
 17
0.0
 27
1.0
 37
0.0
 76
     0
330
1B
  0
LAYOUT
  5
26
102
{ACAD_REACTORS
330
1A
102
}
330
1A
100
AcDbPlotSettings
  1

  2
none_device
  4

  6

 40
0.0
 41
0.0
 42
0.0
 43
0.0
 44
0.0
 45
0.0
 46
0.0
 47
0.0
 48
0.0
 49
0.0
140
0.0
141
0.0
142
1.0
143
1.0
 70
   688
 72
     1
 73
     0
 74
     5
  7

 75
    16
147
1.0
148
0.0
149
0.0
100
AcDbLayout
  1
Layout2
 70
     1
 71
     2
 10
0.0
 20
0.0
 11
0.0
 21
0.0
 12
0.0
 22
0.0
 32
0.0
 14
0.0
 24
0.0
 34
0.0
 15
0.0
 25
0.0
 35
0.0
146
0.0
 13
0.0
 23
0.0
 33
0.0
 16
1.0
 26
0.0
 36
0.0
 17
0.0
 27
1.0
 37
0.0
 76
     0
330
23
  0
LAYOUT
  5
22
102
{ACAD_REACTORS
330
1A
102
}
330
1A
100
AcDbPlotSettings
  1

  2
none_device
  4
Letter_(8.50_x_11.00_Inches)
  6

 40
6.35
 41
6.35
 42
6.35000508
 43
6.35000508
 44
215.9
 45
279.4
 46
0.0
 47
0.0
 48
0.0
 49
0.0
140
0.0
141
0.0
142
1.0
143
1.0
 70
  1712
 72
     1
 73
     0
 74
     0
  7

 75
     0
147
1.0
148
0.0
149
0.0
100
AcDbLayout
  1
Model
 70
     1
 71
     0
 10
0.0
 20
0.0
 11
279.4
 21
215.9
 12
0.0
 22
0.0
 32
0.0
 14
0.0
 24
0.0
 34
0.0
 15
279.4
 25
215.9
 35
0.0
146
0.0
 13
0.0
 23
0.0
 33
0.0
 16
1.0
 26
0.0
 36
0.0
 17
0.0
 27
1.0
 37
0.0
 76
     0
330
1F
331
29
  0
MLINESTYLE
  5
18
102
{ACAD_REACTORS
330
17
102
}
330
17
100
AcDbMlineStyle
  2
Standard
 70
     0
  3

 62
   256
 51
90.0
 52
90.0
 71
     2
 49
0.5
 62
   256
  6
BYLAYER
 49
-0.5
 62
   256
  6
BYLAYER
  0
ACDBPLACEHOLDER
  5
F
102
{ACAD_REACTORS
330
E
102
}
330
E
  0
SCALE
  5
48
102
{ACAD_REACTORS
330
47
102
}
330
47
100
AcDbScale
 70
     0
300
1:1
140
1.0
141
1.0
290
     1
  0
SCALE
  5
49
102
{ACAD_REACTORS
330
47
102
}
330
47
100
AcDbScale
 70
     0
300
1:2
140
1.0
141
2.0
290
     0
  0
SCALE
  5
4A
102
{ACAD_REACTORS
330
47
102
}
330
47
100
AcDbScale
 70
     0
300
1:4
140
1.0
141
4.0
290
     0
  0
SCALE
  5
4B
102
{ACAD_REACTORS
330
47
102
}
330
47
100
AcDbScale
 70
     0
300
1:5
140
1.0
141
5.0
290
     0
  0
SCALE
  5
4C
102
{ACAD_REACTORS
330
47
102
}
330
47
100
AcDbScale
 70
     0
300
1:8
140
1.0
141
8.0
290
     0
  0
SCALE
  5
4D
102
{ACAD_REACTORS
330
47
102
}
330
47
100
AcDbScale
 70
     0
300
1:10
140
1.0
141
10.0
290
     0
  0
SCALE
  5
4E
102
{ACAD_REACTORS
330
47
102
}
330
47
100
AcDbScale
 70
     0
300
1:16
140
1.0
141
16.0
290
     0
  0
SCALE
  5
4F
102
{ACAD_REACTORS
330
47
102
}
330
47
100
AcDbScale
 70
     0
300
1:20
140
1.0
141
20.0
290
     0
  0
SCALE
  5
50
102
{ACAD_REACTORS
330
47
102
}
330
47
100
AcDbScale
 70
     0
300
1:30
140
1.0
141
30.0
290
     0
  0
SCALE
  5
51
102
{ACAD_REACTORS
330
47
102
}
330
47
100
AcDbScale
 70
     0
300
1:40
140
1.0
141
40.0
290
     0
  0
SCALE
  5
52
102
{ACAD_REACTORS
330
47
102
}
330
47
100
AcDbScale
 70
     0
300
1:50
140
1.0
141
50.0
290
     0
  0
SCALE
  5
53
102
{ACAD_REACTORS
330
47
102
}
330
47
100
AcDbScale
 70
     0
300
1:100
140
1.0
141
100.0
290
     0
  0
SCALE
  5
54
102
{ACAD_REACTORS
330
47
102
}
330
47
100
AcDbScale
 70
     0
300
2:1
140
2.0
141
1.0
290
     0
  0
SCALE
  5
55
102
{ACAD_REACTORS
330
47
102
}
330
47
100
AcDbScale
 70
     0
300
4:1
140
4.0
141
1.0
290
     0
  0
SCALE
  5
56
102
{ACAD_REACTORS
330
47
102
}
330
47
100
AcDbScale
 70
     0
300
8:1
140
8.0
141
1.0
290
     0
  0
SCALE
  5
57
102
{ACAD_REACTORS
330
47
102
}
330
47
100
AcDbScale
 70
     0
300
10:1
140
10.0
141
1.0
290
     0
  0
SCALE
  5
58
102
{ACAD_REACTORS
330
47
102
}
330
47
100
AcDbScale
 70
     0
300
100:1
140
100.0
141
1.0
290
     0
  0
SCALE
  5
59
102
{ACAD_REACTORS
330
47
102
}
330
47
100
AcDbScale
 70
     0
300
1/128" = 1'-0"
140
0.0078125
141
12.0
290
     0
  0
SCALE
  5
5A
102
{ACAD_REACTORS
330
47
102
}
330
47
100
AcDbScale
 70
     0
300
1/64" = 1'-0"
140
0.015625
141
12.0
290
     0
  0
SCALE
  5
5B
102
{ACAD_REACTORS
330
47
102
}
330
47
100
AcDbScale
 70
     0
300
1/32" = 1'-0"
140
0.03125
141
12.0
290
     0
  0
SCALE
  5
5C
102
{ACAD_REACTORS
330
47
102
}
330
47
100
AcDbScale
 70
     0
300
1/16" = 1'-0"
140
0.0625
141
12.0
290
     0
  0
SCALE
  5
5D
102
{ACAD_REACTORS
330
47
102
}
330
47
100
AcDbScale
 70
     0
300
3/32" = 1'-0"
140
0.09375
141
12.0
290
     0
  0
SCALE
  5
5E
102
{ACAD_REACTORS
330
47
102
}
330
47
100
AcDbScale
 70
     0
300
1/8" = 1'-0"
140
0.125
141
12.0
290
     0
  0
SCALE
  5
5F
102
{ACAD_REACTORS
330
47
102
}
330
47
100
AcDbScale
 70
     0
300
3/16" = 1'-0"
140
0.1875
141
12.0
290
     0
  0
SCALE
  5
60
102
{ACAD_REACTORS
330
47
102
}
330
47
100
AcDbScale
 70
     0
300
1/4" = 1'-0"
140
0.25
141
12.0
290
     0
  0
SCALE
  5
61
102
{ACAD_REACTORS
330
47
102
}
330
47
100
AcDbScale
 70
     0
300
3/8" = 1'-0"
140
0.375
141
12.0
290
     0
  0
SCALE
  5
62
102
{ACAD_REACTORS
330
47
102
}
330
47
100
AcDbScale
 70
     0
300
1/2" = 1'-0"
140
0.5
141
12.0
290
     0
  0
SCALE
  5
63
102
{ACAD_REACTORS
330
47
102
}
330
47
100
AcDbScale
 70
     0
300
3/4" = 1'-0"
140
0.75
141
12.0
290
     0
  0
SCALE
  5
64
102
{ACAD_REACTORS
330
47
102
}
330
47
100
AcDbScale
 70
     0
300
1" = 1'-0"
140
1.0
141
12.0
290
     0
  0
SCALE
  5
65
102
{ACAD_REACTORS
330
47
102
}
330
47
100
AcDbScale
 70
     0
300
1-1/2" = 1'-0"
140
1.5
141
12.0
290
     0
  0
SCALE
  5
66
102
{ACAD_REACTORS
330
47
102
}
330
47
100
AcDbScale
 70
     0
300
3" = 1'-0"
140
3.0
141
12.0
290
     0
  0
SCALE
  5
67
102
{ACAD_REACTORS
330
47
102
}
330
47
100
AcDbScale
 70
     0
300
6" = 1'-0"
140
6.0
141
12.0
290
     0
  0
SCALE
  5
68
102
{ACAD_REACTORS
330
47
102
}
330
47
100
AcDbScale
 70
     0
300
1'-0" = 1'-0"
140
12.0
141
12.0
290
     0
  0
ENDSEC
  0
EOF
